10 Popular 1960's Psychedelic Songs ( 2 of 2 ) Guitar Lesson …

10 Popular 1960's Psychedelic Songs ( 2 of 2 ) Guitar Lesson … Free Guitar Lessons: http://bobsguitarlessons.yolasite.com/.See Original Article » Guitar Lessons – Buy | Sell | Trade – Greendale, WI Patch School getting out is the perfect time to start lessons. All ages welcome! Call for a trial lesson. 202-0191.See Original Article » Announcement: … Continue reading “10 Popular 1960's Psychedelic Songs ( 2 of 2 ) Guitar Lesson …”

10 Popular 1960's Psychedelic Songs ( 2 of 2 ) Guitar Lesson …

Free Guitar Lessons: http://bobsguitarlessons.yolasite.com/.
See Original Article »

Guitar Lessons – Buy | Sell | Trade – Greendale, WI Patch

School getting out is the perfect time to start lessons. All ages welcome! Call for a trial lesson. 202-0191.
See Original Article »

Announcement: Part 2 of a Guitar Lesson on Daily Exercise Routine is Online

Guitar Control, the online musical instruction company, has recently released another complimentary clip that is actually the second part of a guitar lesson which can be used as a daily routine for increasing speed, improving accuracy, and developing …
See Original Article »

1960's POPULAR ROCK SONGS - Guitar Lesson

**TABS FOR THIS LESSON: http://jpst.it/Ahti
Free Guitar Lessons: http://www.bobsguitarlessons.yolasite.com
Time of the Season - The Zombies

E----------------0---------
B----------------0---------
G----------------0---------
D--------0--2---2--------
A----2-----------2--------
E-----------------0--------

Em / Em7 C ( x 2 )
Em / G / Em / G / Em /
D C G Am E


The Letter - The Box Tops

Verse:
Am / / / F / / / G / / / D / / /
Am / / / F / / / E7 / / / Am / / /

Bridge:
C / G / F / C / G / / / ( x2 ) E7

Ending:
C# / G# / F# / / /

Bus Stop - The Hollies

Intro:
E----8--7--5-------5--5----5----3----
B----------------8------------3----3-----
G------------------------------4----4----
D------------------------------------------
A-------------------------------------------
E-------------------------------------------

Verse:
Am ( 4 measures )
C G Am /
Dm / Em /
Am / / / / Em Am /

Bridge:
C / B7 / Em Em7 C /
Am / B7 / Em / / / ( x2 )

White Rabbit - Jefferson Airplane

E------------------------------------------------------------
B------------------------------------------------------------
G------------------------------------------------------------
D----4--4-------------4--4-(x2)--5--5-----------5--5--
A-------------4-4-4------------------------5-5-5---------
E-------------------------------------------------------------

Verse:
F# / G / F# / G /
A / C D A / / /

Bridge:
E / A / E / A /
F# /

Verse

Ending:
E / A / E / A / E / A /


Ride My See Saw - Moody Blues

Intro: C ( 16 beats )

Verse
C / / / Bb / C /
C / Bb / C /

C Bb F C ( x3 )
Bb / / / ( C / / / )

Bridge:
Dm / / /
( Dm / / / Bb / / /
F / / / C / / / ) x2

Verse

Ending:

C / / / Bb /