Beginner Blues Solos: Beginning Blues Solo 1

Buy Blues Guitar Lessons: Read Movies & TV Reviews –

  • Blues Rock Soloing For Beginner Guitar – Beginner Blues Lick – E Blues
  • Beginner Blues Guitar Lessons – Soloing – Concepts for the Minor Pentatonic Scale
  • 6 Must Know Beginner Blues Guitar Licks & How To Build Solos With Them (EASY)
  • Blues Guitar Soloing – 7 Great Licks For Starting Your Solo
  • Blues Guitar Lessons: E Blues Scale – Beginner Blues Lead Guitar – Blues Soloing
  • How To Play Awesome One String Blues Solos Horizontal Licks: Blues Lead Guitar Lesson Tutorial s2p10
  • E Minor Pentatonic Extension For Beginners – Beginner Blues Soloing – Lead Guitar
  • E Blues Scale Guitar Lesson – Lick 1- Blues Rock Soloing Guitar Lessons
  • 10 EASY Popular Solos – Guitar Lesson
  • Blues Soloing: Using The House Pattern For Major And Minor Blues Scales
«
»
Amazon Price: $1.99 $1.99 (as of August 16, 2017 9:16 am – Details). Product prices and availability are accurate as of the date/time indicated and are subject to change. Any price and availability information displayed on the Amazon site at the time of purchase will apply to the purchase of this product.

Guitar Lesson - Rock and Blues Soloing Basics - Very Easy!!

♫Learn 100 Popular Rock Riffs Guitar Lesson: https://youtu.be/EJSz2QxB5oo
My guitar lesson website: http://www.bobsguitarlessons.yolasite.com

Guitar lesson on how to play 8 amazing rock/blues riffs!

Free guitar lessons http://www.bobsguitarlessons.yolasite.com
500+ VIdeos!
E-------------12--------p----------
B-------12------15---12---------
G-14(B)---------------------------
D------------------------------------
A------------------------------------
E------------------------------------

E----------p-----------
B-----15---12--------
G----------------14--
D-----------------------
A-----------------------
E-----------------------

E----15----12----------------
B-----------------12----------
G-------------------------------
D------------------------------
A------------------------------
E-------------------------------

E-----------12------------
B-------12----------------
G-14(B)-----------------
D--------------------------
A--------------------------
E--------------------------

E-----------12---12---------
B------15--------------------
G----(bend)----------------
D-----------------------------
A-----------------------------
E-----------------------------


E------------------------------
B-------------15--15--------
G-------14-------------------
D-----(bend)----------------
A------------------------------
E------------------------------


E---------------12-----------
B----12---14---------------
G-----------------------------
D-----------------------------
A-----------------------------
E-----------------------------

E--------------15----15---12-------
B------------(bend)------------------
G--------------------------------------
D--------------------------------------
A--------------------------------------
E--------------------------------------