BLACK MAGIC WOMAN – Carlos Santana – Guitar Lesson

LEARN TO PLAY GUITAR WITH ONLINE GUITAR LESSONS! GET FREE GUITAR LESSONS TODAY! – Click here! 10 MUST LEARN Blues Guitar Riffs – EASY: **TABS FOR THIS LESSON: Guitar lesson on how to play Black Magic Woman by Carlo Santana. Easy to follow step by step instructional video with tabs. Tabs for this lesson available … Continue reading “BLACK MAGIC WOMAN – Carlos Santana – Guitar Lesson”

10 MUST LEARN Blues Guitar Riffs – EASY:

**TABS FOR THIS LESSON:
Guitar lesson on how to play Black Magic Woman by Carlo Santana. Easy to follow step by step instructional video with tabs.

Tabs for this lesson available on my guitar lesson website:
Twitter:
Facebook:

E———————————————–
B—-86—————-6h8p6—-8———
G———–7b(9)7——————–7b—-
D———————————————–
A———————————————–
E———————————————–

E—-5—————3—————————–10—
B——–8—65———6—53—( x2 )—–10—–
G———————————————–10——-
D———————————————————-
A———————————————————-
E———————————————————-

E—-10————————————
B———-13—13b–10–13b–p10—
G——————————————–
D——————————————–
A——————————————–
E——————————————–

E———–10—————————————
B—-13b——-13–10—————————–
G—————————12—-14p12p109—
D—————————————————–
A—————————————————–
E—————————————————–

E—————–12–13–12–13p12p10—————-
B—-10—13———————————–13b–10—
G————————————————————–
D————————————————————–
A————————————————————–
E————————————————————–

E———–10——————————-
B—-13b——-13–10———————
G—————————12b–10——–
D—————————————-12–
A———————————————-
E———————————————-

E————-10–13–13b—-15b-13——13—–18b–
B———11——————————-15—————–
G—-12——————————————————–
D—————————————————————
A—————————————————————
E—————————————————————

E—-10—————————————————————————————–10–
B————————–10——————————————————————-10–
G———b12p10–12——-12—10h12p10———————————————10–
D—————————————————–12–10–12–10—————————–
A—————————————————————————12-11-108-10——–
E—————————————————————————————————–

BLACK MAGIC WOMAN - Carlos Santana - Guitar Lesson

10 MUST LEARN Blues Guitar Riffs - EASY: https://youtu.be/3aND42NmZLI

**TABS FOR THIS LESSON: http://jpst.it/AeiD
Guitar lesson on how to play Black Magic Woman by Carlo Santana. Easy to follow step by step instructional video with tabs.

Tabs for this lesson available on my guitar lesson website: http://www.bobsguitarlessons.yolasite.com
Twitter: https://twitter.com/LearnRocGuitar
Facebook: https://www.facebook.com/BobbyCrispyGuitarLessons

E-----------------------------------------------
B----86----------------6h8p6----8---------
G-----------7b(9)7--------------------7b----
D-----------------------------------------------
A-----------------------------------------------
E-----------------------------------------------

E----5---------------3-----------------------------10---
B--------8---65---------6---53---( x2 )-----10-----
G-----------------------------------------------10-------
D----------------------------------------------------------
A----------------------------------------------------------
E----------------------------------------------------------

E----10------------------------------------
B----------13---13b--10--13b--p10---
G--------------------------------------------
D--------------------------------------------
A--------------------------------------------
E--------------------------------------------

E-----------10---------------------------------------
B----13b-------13--10-----------------------------
G---------------------------12----14p12p109---
D-----------------------------------------------------
A-----------------------------------------------------
E-----------------------------------------------------

E-----------------12--13--12--13p12p10----------------
B----10---13-----------------------------------13b--10---
G--------------------------------------------------------------
D--------------------------------------------------------------
A--------------------------------------------------------------
E--------------------------------------------------------------

E-----------10-------------------------------
B----13b-------13--10---------------------
G---------------------------12b--10--------
D----------------------------------------12--
A----------------------------------------------
E----------------------------------------------

E-------------10--13--13b----15b-13------13-----18b--
B---------11-------------------------------15-----------------
G----12--------------------------------------------------------
D---------------------------------------------------------------
A---------------------------------------------------------------
E---------------------------------------------------------------

E----10-----------------------------------------------------------------------------------------10--
B--------------------------10-------------------------------------------------------------------10--
G---------b12p10--12-------12---10h12p10---------------------------------------------10--
D-----------------------------------------------------12--10--12--10-----------------------------
A---------------------------------------------------------------------------12-11-108-10--------
E-----------------------------------------------------------------------------------------------------