EASY METAL GUITAR video VIDEO Heavy Metal Guitar Lessons For Beginner To Intermediate

Buy EASY METAL GUITAR video VIDEO Heavy Metal Guitar Lessons For Beginner To Intermediate: Read 31 Movies & TV Reviews –

THE HEAVY METAL SCALE - Guitar Lesson - Randy Rhoads - Kirk Hammett - Dimebag Darrell - Slash

NEW: 12 Heavy Metal Riffs - Guitar Lesson: https://youtu.be/sU-eQv4Vx7w
My guitar lesson website: http://www.bobsguitarlessons.yolasite.com


500+ VIDEOS! One of the most popular heavy metal guitar lessons on Youtube!! How to play the Heavy Metal scale. Guitar lesson.
E---------------------------------------------------------------------------------
B---------------------------------------------------------------------------------
G----15--14--12---------------------14--12--10--------------------------
D----------------------15--14--12--------------------14--12--11---12---
A---------------------------------------------------------------------------------
E---------------------------------------------------------------------------------


E--------------------------------------------------------------------------------
B--------------------------------------------------------------------------------
G--------------------------------------------------------------------------------
D--------------------------------------------------------------------------------
A----5-0-0---4-0-0---5-0-0---700--800--700--500--400--500----
E--------------------------------------------------------------------------------

E----9---10---12---13---15---17---18---21---22--------
B------------------------------------------------------------------
G------------------------------------------------------------------
D------------------------------------------------------------------
A------------------------------------------------------------------
E------------------------------------------------------------------



E------------------------------------------------------------------------------
B------------------------------------------------------------------------------
G------------------------------------------------------------------------------
D------------------------------------------------------------------------------
A----12p0---8p0---10p0---7p0---8p0---5p0---7p0---4p0---5---
E------------------------------------------------------------------------------

E----17p13----------18p13--------------------15p12---------17p12-------
B----------------15---------------15-------------------------14-------------14--
G-------------------------------------------------------------------------------------
D-------------------------------------------------------------------------------------
A-------------------------------------------------------------------------------------
E-------------------------------------------------------------------------------------


E----17p13-------------15p12--------------13p10-----------12p9------------
B---------------15-------------------14------------------11---------------10------
G---------------------------------------------------------------------------------------
D----------------------------------------------------------------------------------------
A----------------------------------------------------------------------------------------
E----------------------------------------------------------------------------------------

Leave a Reply

This site uses Akismet to reduce spam. Learn how your comment data is processed.

Guitar Tricks Free Trial