Guitar Lesson – METALLICA – Fade to Black – ( 1 of 3 ) With Printable Tabs

LEARN TO PLAY GUITAR WITH ONLINE GUITAR LESSONS! GET FREE GUITAR LESSONS TODAY! – Click here! ♫Learn 100 Popular Rock Riffs Guitar Lesson: My guitar lesson website: **TABS FOR THIS LESSON: How to play Fade to Black by Metallica, part 1 of 3. Guitar lesson with easy to follow step by step method with tabs … Continue reading “Guitar Lesson – METALLICA – Fade to Black – ( 1 of 3 ) With Printable Tabs”

♫Learn 100 Popular Rock Riffs Guitar Lesson:
My guitar lesson website:

**TABS FOR THIS LESSON:
How to play Fade to Black by Metallica, part 1 of 3. Guitar lesson with easy to follow step by step method with tabs in the video.
Part 2 of 3
Follow on Twitter:
E———————————————————————-
B———————————————————————-
G———–0——————————–0———————–
D——-4——4—–4——-4———4——-4—–4——-4—
A—2————-2——-5——–0—————0——-5——-
E———————————————————————-

E—————————————-
B—————————————-
G———–2—————————
D——-2——-2——2——–2—–
A—4—————4——-0———-
E—————————————-

E————————————————————–
B————————————————————–
G———————————————–1——–1—-
D———–0—————-2————-2——–2——–
A——-3—————-2——2—-2———-2———–
E—1———–1—4—————————————-

E————-
B—0—3—
G————
D————
A————
E————

Guitar Lesson - METALLICA - Fade to Black - ( 1 of 3 ) With Printable Tabs

♫Learn 100 Popular Rock Riffs Guitar Lesson: https://youtu.be/EJSz2QxB5oo
My guitar lesson website: http://www.bobsguitarlessons.yolasite.com

**TABS FOR THIS LESSON: http://jpst.it/Aelw
How to play Fade to Black by Metallica, part 1 of 3. Guitar lesson with easy to follow step by step method with tabs in the video.
Part 2 of 3 http://youtu.be/2cMYKTgqe0k
Follow on Twitter: https://twitter.com/LearnRocGuitar
E----------------------------------------------------------------------
B----------------------------------------------------------------------
G-----------0--------------------------------0-----------------------
D-------4------4-----4-------4---------4-------4-----4-------4---
A---2-------------2-------5--------0---------------0-------5-------
E----------------------------------------------------------------------

E----------------------------------------
B----------------------------------------
G-----------2---------------------------
D-------2-------2------2--------2-----
A---4---------------4-------0----------
E----------------------------------------

E--------------------------------------------------------------
B--------------------------------------------------------------
G-----------------------------------------------1--------1----
D-----------0----------------2-------------2--------2--------
A-------3----------------2------2----2----------2-----------
E---1-----------1---4----------------------------------------

E-------------
B---0---3---
G------------
D------------
A------------
E------------