NOTHING ELSE MATTERS – Metallica (1 of 4) Guitar Lesson – Kirk Hammett – James Hetfield

LEARN TO PLAY GUITAR WITH ONLINE GUITAR LESSONS! GET FREE GUITAR LESSONS TODAY! – Click here! My guitar lesson website: **TABS FOR THIS LESSON: my guitar lesson website: Part 2 of 4 Follow on Twitter: E————–0——– B———–0—-0—– G——–0———-0– D———————— A———————— E—-0—————— E————–0—–7– B———–0—-0—– G——–0————– D———————— A———————— E—-0—————— E—-7—————-7p0————– B————–0————–0——— G———0————————0—- D—————————————- A—————————————- E—-0———————————– E————-7—-8—–7–8p7p5—-7–5h7p5–s0——- B————-0—-0———————-0——————5— … Continue reading “NOTHING ELSE MATTERS – Metallica (1 of 4) Guitar Lesson – Kirk Hammett – James Hetfield”

My guitar lesson website:

**TABS FOR THIS LESSON:
my guitar lesson website:
Part 2 of 4
Follow on Twitter:
E————–0——–
B———–0—-0—–
G——–0———-0–
D————————
A————————
E—-0——————

E————–0—–7–
B———–0—-0—–
G——–0————–
D————————
A————————
E—-0——————

E—-7—————-7p0————–
B————–0————–0———
G———0————————0—-
D—————————————-
A—————————————-
E—-0———————————–

E————-7—-8—–7–8p7p5—-7–5h7p5–s0——-
B————-0—-0———————-0——————5—
G——–0———————————————————
D——————————————————————-
A——————————————————————-
E—-0————————————————————–

E——————-2p0————-
B—-5——-5————-5——–
G——–5———————–5—
D————————————–
A—-0——————————–
E————————————–

E——————–0—-0—–0—–
B————–5———-5—–5—–
G———-5————–5—–5—–
D—————————————-
A—-0——————–0—–2——
E—————————————-

E—-0———————-3p0————-0—–
B—-5————-5—————5———5—–
G—-5———5——5—————-5—-5—–
D—————————————————–
A—-3—–3———————————-3—–
E—————————————————–

E—-0—————0——0–5p0—————–0—
B—-7———–7———————7p5p0———–
G—-7——-7————————————4——-
D———————————————————–
A—-5—-5————————————————
E————————————————————

H
E—————H—-12————–
B——–H—-12———0———-
G——-12———————0—–
D—————————————
A—————————————
E—-0———————————

E————————-7—–
B————————-8—–
G——————–9———-
D—————-9————–
A———-7——————–
E—-0————————–

E————————————–
B————–7—————5——
G————–7—————5——
D———7—————-5———-
A—-5—————-3—————
E—————————————

E—————————-7——
B———————-8—-8——
G—————-9———-9——
D—————-9——————
A———7————————-
E—-0——————————

E———-5———————-3—————-
B—————-7———————–5———
G——————-7————————5—-
D———-7———————-5—————-
A—-5———————–3———————
E—————————————————-

E———–3——————
B—————–3————
G———-4———-4——-
D———————-5——-
A——————————-
E—-3————————-

E———2—————–
B—————4———–
G———4———-4—–
D———————4—–
A—-2———————-
E—————————-

NOTHING ELSE MATTERS - Metallica (1 of 4) Guitar Lesson - Kirk Hammett - James Hetfield

My guitar lesson website: http://www.bobsguitarlessons.yolasite.com

**TABS FOR THIS LESSON: http://jpst.it/Afb2
my guitar lesson website:http://www.bobsguitarlessons.yolasite.com
Part 2 of 4 http://youtu.be/6vl28d42Hdo
Follow on Twitter: https://twitter.com/LearnRocGuitar
E--------------0--------
B-----------0----0-----
G--------0----------0--
D------------------------
A------------------------
E----0------------------

E--------------0-----7--
B-----------0----0-----
G--------0--------------
D------------------------
A------------------------
E----0------------------

E----7----------------7p0--------------
B--------------0--------------0---------
G---------0------------------------0----
D----------------------------------------
A----------------------------------------
E----0-----------------------------------

E-------------7----8-----7--8p7p5----7--5h7p5--s0-------
B-------------0----0----------------------0------------------5---
G--------0---------------------------------------------------------
D-------------------------------------------------------------------
A-------------------------------------------------------------------
E----0--------------------------------------------------------------

E-------------------2p0-------------
B----5-------5-------------5--------
G--------5-----------------------5---
D--------------------------------------
A----0--------------------------------
E--------------------------------------

E--------------------0----0-----0-----
B--------------5----------5-----5-----
G----------5--------------5-----5-----
D----------------------------------------
A----0--------------------0-----2------
E----------------------------------------


E----0----------------------3p0-------------0-----
B----5-------------5---------------5---------5-----
G----5---------5------5----------------5----5-----
D-----------------------------------------------------
A----3-----3----------------------------------3-----
E-----------------------------------------------------

E----0---------------0------0--5p0-----------------0---
B----7-----------7---------------------7p5p0-----------
G----7-------7------------------------------------4-------
D-----------------------------------------------------------
A----5----5------------------------------------------------
E------------------------------------------------------------

H
E---------------H----12--------------
B--------H----12---------0----------
G-------12---------------------0-----
D---------------------------------------
A---------------------------------------
E----0---------------------------------

E-------------------------7-----
B-------------------------8-----
G--------------------9----------
D----------------9--------------
A----------7--------------------
E----0--------------------------

E--------------------------------------
B--------------7---------------5------
G--------------7---------------5------
D---------7----------------5----------
A----5----------------3---------------
E---------------------------------------


E----------------------------7------
B----------------------8----8------
G----------------9----------9------
D----------------9------------------
A---------7-------------------------
E----0------------------------------

E----------5----------------------3----------------
B----------------7-----------------------5---------
G-------------------7------------------------5----
D----------7----------------------5----------------
A----5-----------------------3---------------------
E----------------------------------------------------

E-----------3------------------
B-----------------3------------
G----------4----------4-------
D----------------------5-------
A-------------------------------
E----3-------------------------

E---------2-----------------
B---------------4-----------
G---------4----------4-----
D---------------------4-----
A----2----------------------
E----------------------------